Metallica - Attitude Gitar Akoru

Metallica şarkıcısının popüler şarkılarından Attitude şarkısının sözlerini sizlerle paylaşıyoruz. Metallica - Attitude Gitar Akoru sitemize 19 Eylül 2015 Cumartesi tarihinde admin tarafından eklenmiştir.

Metallica - Attitude
Intro Part 1

Gtr 1
* Very quick hammer on and very slow bend.
e:---------------------------------------------------------------------->
B:---------------------------------------------------------------------->
G:---------------------------------------------------------------------->
D:-5h7bbbbbb9--7-5-7-5----------------------5h7bbbbbb9--7-5-7-5--------->
A:---------------------7~~~~~'----------------------------------7~~~~~'->
E:---------------------------------------------------------------------->

Gtr 2

e:-------------------------------------->
B:-------------------------------------->
G:-------------------------------------->
D:-------------------------5--5--5-5s7-->
A:-------------------------5--5--5-5s7-->
E:-----------------------0-3--3--3-3s5-->

Intro Part 2

Gtr 1 Only Both
e:--------------{--------------&
B:--------------5--------------&
G:--------------7bb9-7-5-7-7-9-&
D:-7bb9-7-5-7-5------------7-9-&
A:-------------------------5-7-&
E:-----------------------------&


x4
e:------------------------------------------------------&->
B:------------------------------------------------------&->
G:-----------9'------------9'-----------------------7-9-&->
D:-----4h5---9'------4h5---9'-----4h5---------------7-9-&->
A:-----5-----7'------5-----7'-----5-----5----7----5-5-7-&->
E:-0-0-----0-----0-0-----0----0-0-----0-3--0-5--0-3-----&->
PM(E only------------------------)

Verse

e:---------------------------------------->
B:---------------------------------------->
G:---------------------------------------->
D:---------------------------------------->
A:-7s5-2-2---7-7-7-5---7s5-2-2---5-5-5-7-->
E:-5s3-0-0---5-5-5-3---5s3-0-0---3-3-3-5-->

e:------------------------------------------------>
B:------------------------------------------------>
G:------------------------------------------------>
D:------------------------------------------------>
A:-7s5-2-2---7-7-7-5---7s5-2-2---2-2-2-2-2-2-2-2-->
E:-5s3-0-0---5-5-5-3---5s3-0-0---0-0-0-0-0-0-0-0-->
PM--------------)

Pre-Chorus
x 3
e:----------------&--------->
B:-------5-----3--&--------->
G:----------------&--------->
D:---7------------&--------->
A:-7---------5----&--------->
E:----------------&--------->

x 3
e:----------------&--------->
B:----------------&--------->
G:----------------&--------->
D:-7---------5----&---5-5--->
A:-7---------5----&---5-5--->
E:-5---------3----&-0-3-3--->

Chorus

e:--------------------------------->
B:--------------------------------->
G:--------------------------------->
D:--------------------------------->
A:-5s7----8---5---2-2-2-2-2-2-2-2-->
E:-3s5--0-6-0-3---0-0-0-0-0-0-0-0-->
PM--------------)

Riffs played in this order-

INTRO 1 . INTRO 2 . VERSE . PRE-CHORUS . CHORUS .
INTRO 2 . VERSE . PRE-CHORUS . CHORUS . SOLO .
VERSE . PRE-CHORUS . CHORUS . CHORUS .

The lyrics are below

Suppose I say, I'm never satisfied
Suppose I say, he cuts the roots
To make the tree survive

Just let me kill you for a while
Just let me kill you for a smile
Just let me kill you once
I'm oh so born to die

Oh, I hunger
I hunger
I eat

Born into attitude
Asleep at the wheel
Throw all your bullets in the fire
And run like hell
I get a fever, what ever happened to sweat?

Suppose I say, the vultures smile at me
Suppose I say, I set them down they plan to pick you clean

And satisfaction this way comes
And satisfaction this way comes
And satisfactions here and gone
Gone, yeah, gone again

Oh, I hunger
Oh, I hunger
I eat

Born into attitude
Asleep at the wheel
Throw all your bullets in the fire
And stand there

Born into attitude
Twist mother tongue
Throw all your bullets in the fire
And run like hell
I get a fever, what ever happened to sweat?

Just let me kill you for a while
Just let me kill you for a smile
Just let me kill you once for me
I'm born to die

And satisfaction this way comes
And satisfaction this way comes
And satisfactions here and gone
Gone, gone again

Yeah, I hunger
Oh, I hunger
I eat

Born into attitude
Asleep at the wheel
Throw all your bullets in the fire
And stand there

Born into attitude
Twist mother tongue
Throwing all your bullets in the fire
And run like hell
I get a fever, what ever happened to sweat

Metallica - Attitude Şarkı Sözüne Yorum Yaz

Yorum Yazma Kuralları: Metallica - Attitude Gitar Akoru hakkında yaptığınız yorumlar da hakeret içeren yada onur kırıcı cümleler olmamalıdır. Lütfen sanata saygı çerçevesinde yorum yapınız. Diğer tüm şarkı sözleri yayınlarında olduğu gibi Metallica - Attitude Şarkı Sözlerine atılan hiçbir hakaret, küfür, argo içeren yorum kabul etmeyecektir. Şarkı Sözlerine göstermiş olduğunuz hassasiyetin tüm şarkı sözleri için geçerli olduğunu unutmayınız.
Metallica - Attitude Şarkı Sözüne Yapılan Yorumlar

Metallica - Attitude Şarkı Sözüne henüz yorum yapılmamış. Metallica - Attitude şarkı sözüne ilk yorumu siz yaparak katkıda bulunabilirsiniz.;